File PDF .it

Condividi facilmente i tuoi documenti PDF con i tuoi contatti, il Web e i Social network.

Inviare un file File manager Cassetta degli attrezzi Ricerca PDF Assistenza Contattaci



Santana Songbook .pdf



Nome del file originale: Santana - Songbook.pdf
Titolo: Guitar Tab Universe - Browse Tablature

Questo documento in formato PDF 1.3 è stato inviato su file-pdf.it il 08/08/2014 alle 14:12, dall'indirizzo IP 185.8.x.x. La pagina di download del file è stata vista 2448 volte.
Dimensione del file: 97 KB (42 pagine).
Privacy: file pubblico




Scarica il file PDF









Anteprima del documento


black_magic_woman.btab

From Guitar Tab Universe - www.guitartabs.cc

[save this file]

Transcibed by William Fears.
Artist: Santana.
Album: "The Best of Santana", and "Abraxas".

Intro, bass enters at 00:06
|--------|--------|----------|----------|---------|
|--------|--------|----------|----------|---------|
|--------|5-------|-------12\|5---------|5-----12\|
|-------5|--------|----------|---------5|---------|

|--------|----------|--------|----------|--------|
|--------|----------|--------|----------|--------|
|5-------|5------12\|5-------|5------12\|5-------|
|-------5|----------|-------5|----------|-------5|
(00:29)
|----------|--------|--------|---------|--------|
|----------|--------|----55--|----55-5/|--------|
|5------12\|5------5|---5---5|---5-----|5---55--|
|----------|--------|3-------|3--------|---5---5|

(00:43)
|--------|--------|---------|--------|--------|
|--------|----55--|----55-5/|--------|--------|
|5---55-5|---5---5|---5-----|5-------|5-------|
|---5----|3-------|3--------|--------|--------|
End of Intro

|----5575|----5575|--------|--------|----5575|
|---7----|---7----|----5575|----5575|---7----|
|5-------|5-------|---7----|---7----|5-------|
|--------|--------|5-------|5-------|--------|

|----5575|--------|--------|----5575|--------|
|---7----|----3353|----3353|---7----|----5575|

http://www.guitartabs.cc/tablocate.php?filename=/s/santana/black_magic_woman.btab (1 of 3) [3/14/2001 1:49:34 AM]

black_magic_woman.btab

|5-------|---5----|---5----|5-------|---7----|
|--------|3-------|3-------|--------|5-------|

|----5575|----5575|--------|--------|--------|
|---7----|---7----|--------|--------|--------|
|5-------|5-------|5-------|--------|--------|
|--------|--------|--------|--------|--------|
That's pretty much the bassline for the whole song, except for
some variations.
This is a variation used at the beginning of the song. Around
1:03
|----5575|7---55--|--------|
|---7----|---7--75|--------|
|5-------|--------|5-------|
|--------|--------|--------|
This is one variation from when it goes from D to G.
There are more than this, but I have only figured this one
out. It is used again at 3:06
|----5575|----55--|----------|--------|
|---7----|---7--76|5-----3353|----3353|
|5-------|5-------|---3h5----|---5----|
|--------|--------|----------|3-------|

Variation from A to D plus another variation
from D to G around 1:55. The D to G part is
used again at 2:43
|--------|--------|----5575|-----5--|----------|
|----5575|----55--|---7----|---7---7|5-----3353|
|---7----|---7--76|5-------|5-------|---3h5----|
|5-------|5-------|--------|--------|----------|

|--------|--------|
|----3353|--------|
|---5----|5-------|
|3-------|--------|

http://www.guitartabs.cc/tablocate.php?filename=/s/santana/black_magic_woman.btab (2 of 3) [3/14/2001 1:49:34 AM]

black_magic_woman.btab

Gypsy Queen.

|7-5-------------|----------------|----------------|
|----7-5---------|----------------|----------------|
|--------8-7-5---|5---5---5---5---|5---5---5-------|
|--------------8-|--5---5---5---5-|--5---5---------|

|--------|--------|--------|
|--------|--------|--------|
|--------|5-035-07|5-------|
|--------|--------|--------|
|this section repeats for a while |
Until
|--------|--------|--------|
|--------|--------|--------|
|3-2-----|--------|--------|
|--------|--------|--------|

http://www.guitartabs.cc/tablocate.php?filename=/s/santana/black_magic_woman.btab (3 of 3) [3/14/2001 1:49:34 AM]

black_magic_woman.crd

From Guitar Tab Universe - www.guitartabs.cc

[save this file]

#----------------------------------PLEASE NOTE---------------------------------#
#This file is the author's own work and represents their interpretation of the #
#song. You may only use this file for private study, scholarship, or research. #
#------------------------------------------------------------------------------##
From: macon@gallifry.Berkeley.EDU (Glen Macon)

073
Title:

BLACK MAGIC WOMAN

(Santana)

Dm
Am
I got a black magic woman, I got a black magic woman
Dm
Gm
I got a black magic woman got me so blind I can't see
Dm
A
Dm
I got a black magic woman she try'in to make a devil out of me
Dm
Am
Turn your back on me baby, turn your back on me baby
Dm
Gm
Turn your back on me baby don't turn babe
Dm
A
Dm
Turn your back on me baby you might just pick up my magic sticks
Dm
Am
Got your spell on me baby, got your spell on me baby
Dm
Gm
Got your spell on me baby turnin my heart into stone
Dm
A
Dm
I need you so bad magic woman I can't leave you alone
From: dwaite@uoguelph.ca (Dave S Waite)
Black Magic Woman
Santana

submitted by
Dave Waite

words and music by Peter Green (I think)
Intro:

Dm7 (4bars)
G/D (4bars)

[Dm7] I got a black magic woman, I got a black magic
[Am7]woman. Yes, I got a [Dm7]blac magic woman,
she's got me so blind I cant [Gm7]see
But she's a [Dm7]black magic woman and she's
[A7]tryin' to make a devil out of [Dm7]me.

http://www.guitartabs.cc/tablocate.php?filename=/s/santana/black_magic_woman.crd (1 of 2) [3/14/2001 1:49:35 AM]

black_magic_woman.crd

[Dm7]Don't turn your back on me, baby.
Don't turn your back on me, ba[Am7]by
Yes, don't turn your [Dm7]back on me, baby,
Don't mess around with your [Gm7]tricks.
Don't turn your [Dm7]back on me, baby, cause you
[A7]might just wake up my magic [Dm7]sticks
You got your spell on me, baby.
You got your spell on me, ba[Am7]by.
Yes, you got your [Dm7]spell on me, baby
Turnin' my heart into [Gm7]stone
I [Dm7]need you so bad,
[A7]magic woman I can't leave you a [Dm7]lone...
-***************************************************************************
DAVE S. WAITE
# "Watch out where the huskies go
dwaite@uoguelph.ca
#
And don't you eat that yellow snow."
GO LEAFS
#
Frank Zappa
***************************************************************************

http://www.guitartabs.cc/tablocate.php?filename=/s/santana/black_magic_woman.crd (2 of 2) [3/14/2001 1:49:35 AM]

black_magic_woman.tab

From Guitar Tab Universe - www.guitartabs.cc

[save this file]

#----------------------------------PLEASE NOTE---------------------------------#
#This file is the author's own work and represents their interpretation of the #
#song. You may only use this file for private study, scholarship, or research. #
#------------------------------------------------------------------------------#

From: foucara8@cti.ecp.fr (FOUCART Adrien)
Date: Sun, 3 Mar 1996 17:51:43 +0100 (MET)

BLACK MAGIC WOMAN
BY SANTANA

intro
E------------------------------------------------------------------------------B---------------------------------------10-------------------------10----------G--10~~-7-7/9\7~~-10h12p10~~-7-7/9\7~~------12-10p9~--12-10-9\7~-------12-10\9-.....
E----------------------10--------10----10--------------------------------------B-------------------10--------------13----13-10-13^(15)^13p10---13^(15)~~-----G--12-10-9-------10-----------------------------------------------------------D-------------12-----------------------------D----------12--------------------------------E------------------------------------------.....
E-10-------------------------------12-13-12h13p12-----------------------------B----13-10-------------------10-13----------------13^(15)^13p10----13^(15)---G----------12^(14)^12p10\9~~-------------------------------------------------.....
rake
E--10----------------------------------------12-13-13/15~~-15^(17)^15p13-----B-----13p10-------------------------------13------------------------------15-G-----------12^(14)^12p10h12~~---------14------------------------------------D-----------------------------------14----------------------------------------

E-13~~-19^(20)~~\--10----------------------------------------------------------B------------------------------------------------------------------------------G---------------------12^(14)^12p10----10h12-----------------------------------D-----------------------------------12----------10h12p10----10-----------------A--------------------------------------------12----------12----12p10\8-10-8----E----------------------------------------------------------------------------E-------10-\-------------------------------------------------B-------10-\-------------------------------------------------G-------10-\-------------------------------------------------D-------12-\---------------------------------------------------A-------12-\--------------------------------------------------E--10-8/10-\-------------------------------------------------------

http://www.guitartabs.cc/tablocate.php?filename=/s/santana/black_magic_woman.tab (1 of 4) [3/14/2001 1:49:36 AM]

black_magic_woman.tab

(organ solo)
Dm
Got a black magic woman
Am
Got a black magic woman
Dm
Yes i've got a black magic woman
Gm
Got me so blind i can't see
Dm
That she's a black magic woman
Am
Dm
Got the devil on me

Bass lines
Dm
Am
Dm
Gm
G| ------5-5-7-5-- | ---------------- | ------- | ---------------- |
D|.----7----------.|.-------5-5-7-5--.|.-------.|.--------3-3-5-3-.| then
A|.-5-------------.|.-----7----------.|.-------.|.------5---------.| Dm Am Dm
E| --------------- | --5------------- | ------- | ---3------------ |

Solo

E-------10--------------13h12-10-------------------------------------12~~p13h12B---13^----13^(15)^h10-----------(15)^13h10---------------------10p13----------G-------------------------------------------(14)^-12h10\9--9/10----------------E---------13^(15)-15^(17)^15h13p15^(17)-13~~--19^(20)~~\--12p13h12---12p13h12-B-13^(15)---------------------------------------------------------13----------G-----------------------------------------------------------------------------E---------10------------------------------------------------------------------B-13^(15)----13p10-----------------10--10-13p10--------------13^(15)-15^(17)--G-----------------12^(14)^12p10----10-----------(14)^12p10--------------------D-------------------------------12-------------------------------------------slow bend
E-----------------------------10-----------------------------------------------B-13^(15)~~~---------------13^---13p10-------------------------13^(15)-13^(15)~~
G-----------(14)^12^(14)~~-------------12^(14)^12p10\9~----14------------------D--------------------------------------------------------14--------------------E------------10-------------------10-12-13^(15)~~-15^(17)-19^(20)-20^(22)\---B-(15)^13p10-13^(15)------------11-------------------------------------------G--------------------10-10~~--12---------------------------------------------E----------10-----10------10-13p10h13p10-------------------------------------B----10h13---10h13---10h13--------------13p10h13p10--------------------------G-12^-----------------------------------------------12p10h12p10--------------D---------------------------------------------------------------12p10-12-----http://www.guitartabs.cc/tablocate.php?filename=/s/santana/black_magic_woman.tab (2 of 4) [3/14/2001 1:49:36 AM]

black_magic_woman.tab

E---------------------------------------------------------B---------------------------------------------------------G---------------------9--10~~-----------------------------D------------10--12---------------------------------------A-10-11-12------------------------------------------------E---------------------------------------------------------got your spell on me babe

Date: Wed, 12 Mar 1997 15:32:52 -0800
From: Ryan Izzo
Subject: TAB: Black Magic Woman by Santana
"Black Magic Woman"
by Santana
off of Santana's Greatest Hits
as tabbed by Ryan Izzo
corrections made from tablature by foucara8@cti.ecp.fr (FOUCART Adrien)
(CD time in parenthesis)
I made a few changes to a few of the first phrase but it really makes a
big difference to the entire quality of the piece...I hope i've made
Carlos happy...
h = hammer on
b = bend
\ = slide

p = pull off
r = release bend
~ = let ring

Intro:
e|--------------------------------------------------------------------------------|
B|--8p6~~~~-----------6h8p6~~~~-8----------10--8--6\5~~--8--6--5/3~~--10--8--6\5~~|
G|----------7/9\7~~~~-------------7/9\7~~-----------------------------------------|
D|--------------------------------------------------------------------------------|
A|--------------------------------------------------------------------------------|
E|--------------------------------------------------------------------------------|
e|------------------10------|--------------------------------|----------10--------|
B|--8--6-5--------10--------|--13b15-13-13b15-10-13b15~~~~~--|--13b15~~----13-10--|
G|--------------10----------|--------------------------------|--------------------|
D|------------12------------|--------------------------------|--------------------|
A|----------12--------------|-(0:41)-------------------------|--------------------|
E|--------10----------------|--------------------------------|--------------------|
e|-----------------|-------12-13-12h13p12---------|--------10----------------------|
B|-----------------|-10-13----------------13b15~~-|-13b15~~---13p10----------------|
G|-12b14r12p10\9~~-|------------------------------|-----------------12b14r12p10h12-|
D|-----------------|------------------------------|--------------------------------|
A|-----------------|------------------------------|--------------------------------|
E|-----------------|------------------------------|--------------------------------|
e|--------12-13-13/15~~-15b17r15p13------13~~-19
b20~~\\\\10----------------------|
http://www.guitartabs.cc/tablocate.php?filename=/s/santana/black_magic_woman.tab (3 of 4) [3/14/2001 1:49:36 AM]

black_magic_woman.tab

B|------13----------------------------15------------------------------------------|
G|----14-----------------------------------------------------12b14r12p10----10h12-|
D|--14-------------------------------------------------------------------12-------|
A|--(rake)------------------------------------------------------------------------|
E|--------------------------------------------------------------------------------|
e|-------------------------------------10\--|
B|-------------------------------------10\--|
G|-------------------------------------10\--|
D|----10h12p10----10-------------------12\--|
A|-12----------12----12p10\8-10-8------12\--|
E|--------------------------------10-8/10\--|
Questions, suggestions, praises to:
Ryan Izzo

http://www.guitartabs.cc/tablocate.php?filename=/s/santana/black_magic_woman.tab (4 of 4) [3/14/2001 1:49:36 AM]

el_farol.tab

From Guitar Tab Universe - www.guitartabs.cc

[save this file]

Song: Santana - El Farol
Album: Supernatural
Tabbed By: javierdlf214@aol.com (Javier De La Fuente Jr.)

This is complete except for the end solo, which I am attempting now.
Until then, have fun with it.
-javierdlf214
Feel free to email comments or suggestions.
Standard Tuning
(Timing according to Track 2 on "Smooth" single.)
Intro (Acoustic)
:08
|---------------------||---------------------------------------------------|
|----------10-8-------||----------10----10----10---------------------------|
|--9-10-12------10-9--||--9-10-12----12----12----12-10-9-10-9h10p9--7-9-7-5|
|---------------------||---------------------------------------------------|
|---------------------||---------------------------------------------------|
|---------------------||---------------------------------------------------|
Riff 1a
:19
|--------------------------------------------------------------------------|
|--13------13-12-----10-----------6-10--9----------------------------------|
|-----9-10-------7h9----5-7---4-7---------10--7h9-5h7-5-7-9-7-9------------|
|--------------------------------------------------------------------------|
|--------------------------------------------------------------------------|
|--------------------------------------------------------------------------|
:37
|--------------------------------------------------------------------------|
|--13----------13-12---8----------10----------6-10-9h10p9------------------|
|-----9-10--10-------7---7-9-999----5-7--4-7-------------10-7h9-7-5-7-9-7-9|
|--------------------------------------------------------------------------|
|--------------------------------------------------------------------------|
|--------------------------------------------------------------------------|
Riff 2a
:56
1:01
1:05
|------------------------||--------------------||--------------------------|
http://www.guitartabs.cc/tablocate.php?filename=/s/santana/el_farol.tab (1 of 3) [3/14/2001 1:49:37 AM]

el_farol.tab

|------------------------||--------------------||--------------------------|
|----9---9-7--10-10h12\9-||----5-7-9-7--4--7-5-||--9--9-7--10-10/12-9-7-9--|
|--7---7-----------------||--7-----------------||-7-7----------------------|
|------------------------||--------------------||--------------------------|
|------------------------||--------------------||--------------------------|
1:10
|--------------------------------------------------------------------------|
|--------------------------------------------------------------------------|
|---5-7-9-7--4-1---2h4-2--1-2-4--2-4-5--4-5-7--5-7-9--12-10-9--------------|
|-7--------------2---------------------------------------------------------|
|--------------------------------------------------------------------------|
|--------------------------------------------------------------------------|
Riff 1b
1:23
|--------------------------------------------------------------------------|
|-13------13-12-------10----------6-10-9-----------------------------------|
|----9-10-------7-9-9----5-7--4-7--------10-7h9-7--5-7-9-7-9---------------|
|--------------------------------------------------------------------------|
|--------------------------------------------------------------------------|
|--------------------------------------------------------------------------|
1:42
|--------------------------------------------------------------------------|
|-13------13-12---8---------10----------6-10-9-----------------------------|
|----9-10-------7---7-9-999----5-7--4-7--------10-7h9-7-5-7-9-7-9----------|
|--------------------------------------------------------------------------|
|--------------------------------------------------------------------------|
|--------------------------------------------------------------------------|
Riff 2b
2:01
2:05
2:10
|-----------------------||-----------------------||------------------------|
|-----------------------||-----------------------||------------------------|
|---9---9-7--10-10h12-9-||---5-7-9-7-4-1---2h4-2-||--9-9-7-9-10-10h12-9-7-9|
|-7---7-----------------||-7-------------2-------||-7-7--------------------|
|-----------------------||-----------------------||------------------------|
|-----------------------||-----------------------||------------------------|
2:15
2:19
Tricky, but fun.
|-----------------------||-------------------------------------------------|
|-----------------------||----------------6-8-6-----10-8-------------------|
|---5-7-9-7-4-1---4-2---||---5-7-9-7--7-9-------9-7------9h10p9-7-9--------|
|-7-------------2-------||-7-----------------------------------------------|
|-----------------------||-------------------------------------------------|
|-----------------------||-------------------------------------------------|

http://www.guitartabs.cc/tablocate.php?filename=/s/santana/el_farol.tab (2 of 3) [3/14/2001 1:49:37 AM]

el_farol.tab

2:24
|--------------------------------------------------------------------------|
|--------------------------------------------------------------------------|
|---5-7-7/9-7-4-1---2h4-2-1-2-4--2-4-5--4-5-7--5-7-9--12-10-9--------------|
|-7---------------2--------------------------------------------------------|
|--------------------------------------------------------------------------|
|--------------------------------------------------------------------------|
Riff 1c
2:35
|--------------------------------------------------------------------------|
|---10-12-13------13-12-------10----------6-10-9h10p9----------------------|
|-9----------9-10-------7h9-9----5-7--4-7-------------10-7h9-7-5-7-9-7-9---|
|--------------------------------------------------------------------------|
|--------------------------------------------------------------------------|
|--------------------------------------------------------------------------|
Solo
2:56
|----------------------------------?----------------------------------------|
|-----------------------------------?---------------------------------------|
|------------------------------------?--------------------------------------|
|-------------------------------------?-------------------------------------|
|--------------------------------------?------------------------------------|
|---------------------------------------?-----------------------------------|

http://www.guitartabs.cc/tablocate.php?filename=/s/santana/el_farol.tab (3 of 3) [3/14/2001 1:49:37 AM]

el_farol2.tab

From Guitar Tab Universe - www.guitartabs.cc

[save this file]

Hi guys me agian Joe I fiugred out Santana song El Farol. This is only ther intro so
I will
have the rest of the song in a week or 2. Well have fun with it and mess around with
it.
Any questions comments email me at joey820_2000@yahoo.com

e--8-----8--7---------5---------------------------------------------------------B----5-6------3h5p3h5------------------5--4-------------------------------------G-----------------------3--5--4---5--7------7--5--7--9--------------------------D-------------------------------------------------------------------------------A-------------------------------------------------------------------------------E--------------------------------------------------------------------------------

Key;
h=hammer on
p=pull off

http://www.guitartabs.cc/tablocate.php?filename=/s/santana/el_farol2.tab [3/14/2001 1:49:37 AM]

evil_ways.crd

From Guitar Tab Universe - www.guitartabs.cc

[save this file]

#----------------------------------PLEASE NOTE---------------------------------#
#This file is the author's own work and represents their interpretation of the #
#song. You may only use this file for private study, scholarship, or research. #
#------------------------------------------------------------------------------##
#
From: "Leigh Robinson"
Date: Fri, 4 Oct 1996 20:13:52 +0000

EVIL WAYS
BY
SANTANA
Am D Am D
You got to change your evil ways, baby
Am
D
Am D
Before I stop loving you
Am D Am D
You got to change, baby
Am
D
Am
D
And every word that I say is true
Am
You got me runnin' and hidin'
Am
D
All over town
Am
You got me speakin' and believin'
Am
D
And runnin' you down
E
This can't go on

D

D

Am D Am D
Lord knows you got to change, baby

When I come home, baby
My house is dark and my thoughts are cold
You hang around, baby
With Trina, Joan and a who knows who
I'm getting tired of waiting and fooling around
Go find somebody that won't make you feel like a clown
This can't go on
Lord knows you got to change
Repeat last verse

http://www.guitartabs.cc/tablocate.php?filename=/s/santana/evil_ways.crd (1 of 2) [3/14/2001 1:49:38 AM]

evil_ways.crd

It's a pretty easy song. The strum goes as follows: Am down slap
D up down slap Am up up slap D up down up down up.
Any corrections etc are welcome.
Sarah Robinson
leigh.r@pixie.co.za

http://www.guitartabs.cc/tablocate.php?filename=/s/santana/evil_ways.crd (2 of 2) [3/14/2001 1:49:38 AM]

hope_youre_feeling_better.tab

From Guitar Tab Universe - www.guitartabs.cc

[save this file]

#----------------------------------PLEASE NOTE---------------------------------#
#This file is the author's own work and represents their interpretation of the #
#song. You may only use this file for private study, scholarship, or research. #
#------------------------------------------------------------------------------#
#

From izzo@4Link.Net Tue Apr 8 13:02:56 1997
Date: Tue, 11 Mar 1997 21:32:07 -0800
From: Ryan Izzo
To: guitar@olga.net
Cc: acoustic@olga.net
Subject: TAB: Hope your feeling better by Santana
"Hope your feeling better"
by Santana
off of Santana's Greatest Hits
as tabbed by Ryan Izzo
h = hammer
p = pull off
b = bend
Main Riff
e|------------------------------------|
B|------------------------------------|
G|------------------------------------|
D|-------5---7~~~~--------5---5-5-----|
A|--5-7----7----------5-7---7-----7---|
E|------------------------------------|
That was great huh?
I'll do anything to see my name in lights
Ryan Izzo

http://www.guitartabs.cc/tablocate.php?filename=/s/santana/hope_youre_feeling_better.tab [3/14/2001 1:49:39 AM]

let_me_inside.crd

From Guitar Tab Universe - www.guitartabs.cc

[save this file]

#----------------------------------PLEASE NOTE---------------------------------#
#This file is the author's own work and represents their interpretation of the #
#song. You may only use this file for private study, scholarship, or research. #
#------------------------------------------------------------------------------##
-------------------------------------LET ME INSIDE
by
CARLOS DEVADIP SANTANA
-------------------------------------KEY: Cm
Drum roll.

Intro lead:

Cm / Cm

Cm
Well Hello, What's your name?
Can I take you by the hand?
Cm
Won't you please come with me
To a place of ecstacy

Fm
Paradise, By the sun
Girl I'm sure you'll have some fun

Cm
By your eyes, I can see
That you want to be with me
Gm
Fm
I've been waiting for so long
Gm
Now that I've found you
(Fm)
Aint no way I'm gonna let you go

Chorus:
Cm
Let ME inside

(IN THREE VOICES)

http://www.guitartabs.cc/tablocate.php?filename=/s/santana/let_me_inside.crd (1 of 3) [3/14/2001 1:49:39 AM]

let_me_inside.crd

Open up your heart come on and
Let ME inside
Open up your heart..

Cm
Night is clear, Moon is bright
Stars are shining every where
Cm
In my arms, you'll be safe
There's no need to be afraid
Fm
It's a warm sunday night
And the temperature is right
Cm
Let you hair, in the glow
Girl I want to feel the flow

Gm
Fm
I've been waiting for so long
Gm
Now that I've got you
(Fm)
Ain't no way I'm gonna let you....
Lead:2
Cm -(Bb) / Cm -(Bb) / Cm -(Bb) / Cm -(Bb)
Fm / Fm
Cm -(Bb) / Cm -(Bb)
Fm-Gm-Ab-Bb-Cm
Full Chorus;

Cm

Lead:3;

Cm - (Bb)

Chorus: 1 line;

Cm - (Bb)

Lead:4;

Cm - (Bb)

Chorus: 1 line;

Cm - (Bb)

.....8 x

..... 2 xx

http://www.guitartabs.cc/tablocate.php?filename=/s/santana/let_me_inside.crd (2 of 3) [3/14/2001 1:49:39 AM]

let_me_inside.crd

Lead:5;

Cm - (Bb) - Fm-Gm-Ab-Bb-

Chorus: 1 line;

Cm - (Bb)

Final lead:6;

Cm - (Bb)
Fm-Gm-Ab-BbFm-Gm-Ab-Bb-

Rythym change: (Cm*4) ....4 times

Fm
-Gm
-Ab
-Bb
Fm
-Gm -Ab -Bb -(Cm**4)|||
Let your hair come down, Girl, I want to feel that flo-o-o-o-ooow
------------------------------------------------------------------------contributed by
Urban De Souza
ujd@ecl.psu.edu
improvements?

http://www.guitartabs.cc/tablocate.php?filename=/s/santana/let_me_inside.crd (3 of 3) [3/14/2001 1:49:39 AM]

maria_maria_.tab

From Guitar Tab Universe - www.guitartabs.cc

[save this file]

Submitted and transcribed by: Kyle G.
I did this
fingerings
in places,
of "Played

in about ten seconds after watching the video and seeing where his
were. Plus, I can play stuff by ear most of the time It may be scratchy
like the end. This is the little riff Carlos plays after he gets his cue
by Carlos Santana". May not be a solo but, hey, it is in this tab.

Maria, Maria Solo.
e--12-12-12-12-13-12-----------|
B--------------------13----13--|
G-----------------------14-----|
D------------------------------|
A------------------------------|
E------------------------------|
e--12-12-12-13-17--------------|
B-----------------13----13-----|
G--------------------14--------|
D------------------------------|
A------------------------------|
E------------------------------|
e--12-12-12-12-13-12-----------|
B--------------------13----13--|
G-----------------------14-----|
D------------------------------|
A------------------------------|
E------------------------------|
e--12-12-12-12-12-12^----------|
The last part I haven't really gotten done yet, so if you have any changes, e-mail me
and I'll give you your credit.

http://www.guitartabs.cc/tablocate.php?filename=/s/santana/maria_maria_.tab [3/14/2001 1:49:40 AM]

oye_como_va.tab

From Guitar Tab Universe - www.guitartabs.cc

[save this file]

#----------------------------------PLEASE NOTE---------------------------------#
#This file is the author's own work and represents their interpretation of the #
#song. You may only use this file for private study, scholarship, or research. #
#------------------------------------------------------------------------------#
#
Date: Sat, 10 May 1997 15:32:05 -0700
From: Ryan Izzo
Subject: TAB: 'Oye Como Va' by 'Santana'
"Oye Como Va"
by Santana
off of Santana's Greatest Hits
as tabbed by Ryan Izzo
(CD time in parentheses)
h = hammer on
b = bend
\ = slide

p = pull off
r = release bend
~ = let ring

Intro:
e|--------7-8-10--7-------|
B|-10--10-----------8h10--|
G|------------------------| Repeat 4X
D|------------------------|
A|------------------------|
E|-(0:16)-----------------|
Spanish:
boy)
English:

Oye como va ....me lee mo weirdo peudo sa????? (I'm a white
Listen to how it goes...

(someone help)

Solo 1:
e|-----------------------------------------------------------------|
B|-------8---8-7------------------------8---8-7--10----------------|
G|-----9---9------7----5h7-7p5--------9---9------------------------|
D|-7---------------------------7--7--------------------------------|
A|-----------------------------------------------------------------|
E|-(0:57)------------------------(1:01)----------------------------|
e|-----------------------------------------------------------------|
B|-------8---8-7----------------------8-10--8-7--10
b
13-------|
G|-----9---9------7--5h7-7p5--------9------------(slow bend)-------|
D|-7-------------------------7---10--------------------------------|
A|-----------------------------------------------------------------|
E|-(1:05)----------------------(1:08)------------------------------|

http://www.guitartabs.cc/tablocate.php?filename=/s/santana/oye_como_va.tab (1 of 4) [3/14/2001 1:49:41 AM]

oye_como_va.tab

e|-8-8-5-5-8-5--8--5----5------------8-8-5-5-8-5---5---------------|
B|--------------------7-------------------------/7-----------------|
G|------------------------5h7-7p5---------------------7b8-5--------|
D|--------------------------------7--------------------------------|
A|-----------------------------------------------------------------|
E|-(1:12)--------------------------(1:16)--------------------------|
e|-8-8-5-5-8-5--8--5----5------------8-8-5-5-8-5---5~/12-----------|
B|--------------------7--------------------------7-----------------|
G|------------------------5h7-5------------------------------------|
D|------------------------------7p6--------------------------------|
A|-----------------------------------------------------------------|
E|-(1:19)--------------------------(1:23)--------------------------|
e|-8-5--8-5--8-5--8-5--8-5--8-5--8-5--8-5--------------------------|
B|-----------------------------------------------------------------|
G|-----------------------------------------5h7---5h7-7p5-----------|
D|-------------------------------------------------------7---------|
A|-----------------------------------------------------------------|
E|-(1:27)----------------------------------------------------------|
e|-----------------------------------------------------------------|
B|---------5---5-7---------------------5---5-7---------------------|
G|-5-555-5---5-----------------5-555-5---5-------------------------|
D|-(weird)---------4--5--6--7-------------------4--5--6--7---------|
A|-----------------------------------------------------------------|
E|-(1:34)----------------------(1:38)------------------------------|
e|-----------------------------------------------------------------|
B|---------5---5-7-------------------------------------------------|
G|-5-555-5---5-----------------------------------------------------|
D|------------------4--5--6--7-------------------------------------|
A|-----------------------------------------------------------------|
E|-(1:42)----------------------------------------------------------|
mostly keyboard and other junk here . I am not good with
chords so if someone could fill in this blank I would appreciate it.
Solo 2:
e|--5/12---8-8-5-5-8-5--8--5----5-------------8-8-5-5-8-5----------|
B|----------------------------7---------------------------7h10-----|
G|--------------------------------5h7-7p5--------------------------|
D|----------------------------------------7------------------------|
A|-----------------------------------------------------------------|
E|-(3:20)-------------------------------------(3:26)---------------|
e|-8-8-5-5-8-5--8--5----5------------8-8-5-5-8-5----5~/12----------|
B|--------------------7--------------------------/7----------------|
G|------------------------5h7-7p5----------------------------------|
D|--------------------------------7--------------------------------|
A|-----------------------------------------------------------------|
E|-(3:29)----------------------------(3:33)------------------------|
http://www.guitartabs.cc/tablocate.php?filename=/s/santana/oye_como_va.tab (2 of 4) [3/14/2001 1:49:41 AM]

oye_como_va.tab

e|-17b18r17b18r17-12-/14--17---------------------------------------|
B|---------------------------15------------------------------------|
G|--------------------------------12b14---12-b14---12-b14---12-b14-|
D|-----------------------------------------------------------------|
A|-----------------------------------------------------------------|
E|-(3:37)------------------------(3:40)----------------------------|
e|-----------------------------------------------------------------|
B|-----------10----------------------------------------------------|
G|-12-b14-12----12-------------12-----------------------12/13------|
D|-----------------12-10----10-12-10----12/13---12/13---12/13------|
A|-----------------------12----------12----------------------------|
E|-(3:43)----------------------------------------------------------|
e|-----------------------------------------------------------------|
B|-----------------------------------------------------------------|
G|----------------12-----------------------------------------------|
D|-12/13-10----10-12-10---------10/12-12p10-------10-12-12p10-10-10|
A|----------12----------12--/12-10/12-12p10-12p10-10-12-12p10-10-10|
E|-(3:48)-----------------------(3:51)------12p10------------------|
e|-8-5--8-5--8-5--/12-5--8-5-8\5--8-5--88-5--8-5--8-5--8-5-8-5-----|
B|-----------------------------------------------------------------|
G|-----------------------------------------------------------------|
D|-----------------------------------------------------------------|
A|-----------------------------------------------------------------|
E|-(3:55)----------------------------------------------------------|
e|-8p5-8-8p5-8-5-8-5-----------------------------------------------|
B|-----------------------------------------------------------------|
G|-----------------------------------------------------------------|
D|-----------------------------------------------------------------|
A|-----------------------------------------------------------------|
E|-(4:03)----------------------------------------------------------|
I don't see too many Santana tabs so this should help.
I would love to hear any corrections, suggestions, or praises.
Ryan Izzo

Date: Sat, 28 Feb 1998 13:11:06 -0800 (PST)
From: Jeff Steele
Subject: Oye_Como_Va.lrc
Oye Como Va
by
Santana

http://www.guitartabs.cc/tablocate.php?filename=/s/santana/oye_como_va.tab (3 of 4) [3/14/2001 1:49:41 AM]

oye_como_va.tab

Okay, for those who can't figure out the lyrics to
Oye Como Va by Santana, here they are with an english
translation too!!
Oye Como Va
Mi ritmo
Bueno pa gosar
Dudar

Hey How's it going
My rythm
It is fun to dance
No doubt

Oh I forgot to say that it is a wierd english
translation. It is like if you tell a joke in
spanish and then tell the english translation it is
not funny. So the way for it to make sense to those
who "No speka spanishio" it would be:
Hey how's it going
There is no doubt that my rythm is fun to dance.
Bye now Questions or comments can be sent to
Jeff_Steele@rocketmail.com

http://www.guitartabs.cc/tablocate.php?filename=/s/santana/oye_como_va.tab (4 of 4) [3/14/2001 1:49:41 AM]

samba_pa_ti.tab

From Guitar Tab Universe - www.guitartabs.cc

[save this file]

#----------------------------------PLEASE NOTE---------------------------------#
#This file is the author's own work and represents their interpretation of the #
#song. You may only use this file for private study, scholarship, or research. #
#------------------------------------------------------------------------------##
_
_ __ ___ ___ __ __
_
_ _
Michael J. Hoffman
| |_| |/ .\| =| =| V | / \ | \| |
Encore Computer Corporation
|_| |_|\__/|_| |_| |_|V|_|/_^_\|_|\_|
mhoffman@encore.com
"I am logged in, therefore I am."
-------------------------------------------------------------------------

Samba Pa Ti
Music by Carlos Santana from the album "Abraxas"

Legend of symbols used in this tab:
5/7
7\5
/5
5\
5b7
[5]b7
5b7r5
5h7
7p5
(7)
~~~
X

Slide up from fret 5 to 7
Slide down from fret 7 to 5
Slide up "from nowhere"
Slide down "to nowhere"
Pick fret 5, then bend two frets
Bend two frets before picking
Pick, bend two frets, release bend
Pick fret 5, hammer on fret 7
Pick fret 7, pull of to fret 5
The note is still ringing from a previous hit
Left hand vibrato
Fret string loosely to mute the sound

G
Bm
Em
|-----------------||-------------|---------------|----------------|
|---------------8-||-------------|-6/7---7h8p7---|----------------|
|---------7-8h9---||-5h7-----4h7-|---------------|----------------|
|--7-9-10---------||--------5----|-------------9-|----------------|
|-----------------||-------------|---------------|----------------|
|-----------------||-------------|---------------|----------------|
Am7
G
Bm
Em
|------------------|-------------|---------------|----------------|
|----------------8-|-------------|-6/7-7--7h8p7--|----------------|

http://www.guitartabs.cc/tablocate.php?filename=/s/santana/samba_pa_ti.tab (1 of 8) [3/14/2001 1:49:42 AM]

samba_pa_ti.tab

|----------7-8h9---|-5h7-----4h7-|---------------|----------------|
|---7-9-10---------|--------5----|-------------9-|----------------|
|------------------|-------------|---------------|----------------|
|------------------|-------------|---------------|----------------|
Am7
D
Am7
|--5h7-5h7p5---------5----|-----7------|--5h7p5h7p5---------------|
|------------8-(8)p5-8b10-|-----10b12--|------------8----(8)p5----|
|-------------------------|------------|--------------------------|
|-------------------------|------------|--------------------------|
|-------------------------|------------|--------------------------|
|-------------------------|------------|--------------------------|
D
[hold]
Am
Bm
|-----------------|----------------------|---------|-----------------|
|-8b10r8p5-5h7p5--|---------5---------5--|---------|------4/5h7------|
|---------------7-|-(7)------7-5\4/5h7---|---------|-4--7-------4--7-|
|-----------------|--------------------7-|-(7)-----|-----------------|
|-----------------|----------------------|---------|-----------------|
|-----------------|----------------------|---------|-----------------|
Am
D
(D)
G
|-5h7-5h7p5-5---------5----|-(5)----|-----------------|--------------|
|-------------8-8p5-8-8b10-|-(8b10)-|---------------8-|--------------|
|--------------------------|--------|---------7-8h9---|-5h7------4-7-|
|--------------------------|--------|--7-9-10---------|--------------|
|--------------------------|--------|-----------------|--------------|
|--------------------------|--------|-----------------|--------------|
Bm
Em
Am7
G
|----------------|--------|------------------|--------------|
|-6/7-7--7h8p7---|--------|----------------8-|--------------|
|-------------7--|-9------|----------7-8h9---|-5h7-----4-7--|
|--------------9-|--------|---7-9-10---------|--------------|
|----------------|--------|------------------|--------------|
|----------------|--------|------------------|--------------|
Bm
Em
~~~~
Am7
|---------------|------12---------12-----------------|-5h7-5h7p5-----5----|
|-6/7-7--7h8p7--|----12---15b17-----14-14b16r14p12---|----------8p5--8b10-|
|---------------|--12-----------------------------14-|--------------------|
|-------------9-|------------------------------------|--------------------|
|---------------|------------------------------------|--------------------|
|---------------|------------------------------------|--------------------|
D
~~~~~~
Am7
D
[hold]
Am
|-(5)-------7-----|-5h7p5h7p5----|-3/5----------|-------------------|--------|
|-(8b10)----10b12-|----------8p5-|-----5-5h7p5--|------5----------5-|--------|
|-----------------|--------------|------------7-|-(7)---7-5\4/5h7---|--------|
|-----------------|--------------|--------------|-------------------|-7--7/8-|
|-----------------|--------------|--------------|-------------------|--------|
|-----------------|--------------|--------------|-------------------|--------|

http://www.guitartabs.cc/tablocate.php?filename=/s/santana/samba_pa_ti.tab (2 of 8) [3/14/2001 1:49:42 AM]

samba_pa_ti.tab

Bm
Am
D
(D)
|---------------5h7-5h7p5-5---------5-----|--(5)------5/7-|---(7)-----------|
|----------------|---------8-8p5-8-[8]b10-|-([8]b10)------|-----------------|
|--7-7--8/9-7-7--|------------------------|---------------|-----------------|
|-9---9------9---|------------------------|---------------|-----------------|
|----------------|------------------------|---------------|-----------------|
|----------------|------------------------|---------------|-----------------|
(w/Fill 1 these 2 measures.........)
G
Bm
Bbm Am
D
|------------7-7-----|-(7)----------|--------5h7-5h7p5----|----------5------|
|---8-8-8-10---10b12-|(10b12)--7----|-(7)-------------8-7-|-(7)-7-8---------|
|--------------------|---------9b11-|-(9b11)--------------|-----------------|
|--------------------|--------------|---------------------|-----------------|
|--------------------|--------------|---------------------|-----------------|
|--------------------|--------------|---------------------|-----------------|
Fill 1:
~~~~~~~~~~~~~~~~~~
|----10-------12--------|------------12------|
|----13b15----15b17-----|--------------------|
|-----------------------|--------------------|
|-----------------------|--------------------|
|-----------------------|--------------------|
|-----------------------|--------------------|
(w/Fill 2 these three measures...............)
G
Bm
Bbm Am
|-----------7-7-----|-(7)-----------|--------------5h7-5h7p5-----|---------5-|
|--8-8-8-10---10b12-|-(10b12)--7----|------------------------8-7-|-(7)-7-8---|
|-------------------|----------9b11..(hold)....r9----------------|-----------|
|-------------------|---------------|----------------------------|-----------|
|-------------------|---------------|----------------------------|-----------|
|-------------------|---------------|----------------------------|-----------|
Fill 2:
(....doubles 1st gtr....)
|-------10------|--------------5h7-5h7p5-----|---------5-|
|-------13b15....(hold)...r13------------8-7-|-(7)-7-8---|
|---------------|----------------------------|-----------|
|---------------|----------------------------|-----------|
|---------------|----------------------------|-----------|
|---------------|----------------------------|-----------|
Gtr. Solo: double time
G
Am
G
Am
~~~~~~~~~~~~
|-----------3-5-|-(5)/7--------|--------------3-5--|------------------------|
|---3-3-3h5-----|--------------|------3-3-3h5------|--3h5p3----------(3)h5--|
|---------------|--------------|-------------------|------------------------|
|---------------|--------------|-------------------|------------------------|
|---------------|--------------|-------------------|------------------------|
|---------------|--------------|-------------------|------------------------|

http://www.guitartabs.cc/tablocate.php?filename=/s/santana/samba_pa_ti.tab (3 of 8) [3/14/2001 1:49:42 AM]

samba_pa_ti.tab

G
Am
G
Am
|-----------3-5-|-(5)/7--(7)\3-|--------------3-5--|--------------------|
|---3-3-3h5-----|--------------|------3-3-3h5------|--3h5p3-----------3-|
|---------------|--------------|-------------------|--------------------|
|---------------|--------------|-------------------|--------------------|
|---------------|--------------|-------------------|--------------------|
|---------------|--------------|-------------------|--------------------|
G

Am
~~~~ ~~~~ ~~~~ ~~~~ ~~~~
|-8h10----10----10----10----10----10-|-(10)-8-7-7p5---------5--7-----|
|------------------------------------|--------------8-7--8-----------|
|------------------------------------|----------------------------7--|
|------------------------------------|-------------------------------|
|------------------------------------|-------------------------------|
|------------------------------------|-------------------------------|
G

Am

G

~~~ ~~~ ~~~
~~~ ~~~
|-3--------------------|-------0------------7/10-|-10--10--10--7-10-7-10--10-|
|---3/5\3-5-3b5r3p0----|------0-3p0--------------|---------------------------|
|------------------2b4-|-(2b4)-----2b4r2p0-------|---------------------------|
|----------------------|------------------2------|---------------------------|
|----------------------|-------------------------|---------------------------|
|----------------------|-------------------------|---------------------------|
Am

G

Am

~~~~ ~~~~ ~~~~ ~~~~ ~~~~
|-(10)-8-7-7p5------5-7-|-3--------12-----|---------------------------------|
|-------------8-7-8-----|---3/5\3-----15b17r15---15---15---15---15---15-----|
|-----------------------|-----------------|---------------------------------|
|-----------------------|-----------------|---------------------------------|
|-----------------------|-----------------|---------------------------------|
|-----------------------|-----------------|---------------------------------|
G
Am
~~~~ ~~ ~~
~~~~ ~~~~~~~
|------------------------------|----------------------|
|(15)-15-15-15p12--------------|----------15--(15)p12-|
|----------------14b16r14p12---|-12-14b16-------------|
|---------------------------14-|----------------------|
|------------------------------|----------------------|
|------------------------------|----------------------|
G
Am
|-------------------12-------------|-------------------------------|
|-15-15b17r15p12-15----15b17r15p12-|-15-15-15----------------------|
|----------------------------------|----------14b16-14b16r14p12----|
|----------------------------------|----------------------------14-|
|----------------------------------|-------------------------------|
|----------------------------------|-------------------------------|

http://www.guitartabs.cc/tablocate.php?filename=/s/santana/samba_pa_ti.tab (4 of 8) [3/14/2001 1:49:42 AM]

samba_pa_ti.tab

G

Am
~~~~~~ ~~~~~~
|-----------------------|--------------------12----------------------|
|-----------------------|------------------12--15p12-----------15b17-|
|-12----14b16----14b16.....r14--14p12-14b16---------14b16r14p12------|
|-----------------------|--------------------------------------------|
|-----------------------|--------------------------------------------|
|-----------------------|--------------------------------------------|
G

Am

~~~
|-(15b17)r15p12--------------------------|-12-14-14--15-15--17-17--15-15--14-|
|--------------15b17r15p12---------------|-----------------------------------|
|-------------------------14b16r14p12----|-----------------------------------|
|------------------------------------14--|-----------------------------------|
|----------------------------------------|-----------------------------------|
|----------------------------------------|-----------------------------------|
G
Am
|-14--12-12\10-12\---------|--------------------------|
|------------------12h13p12\10h12p10\8-10p8\7-5-----5-|
|--------------------------|--------------------7b9---|
|--------------------------|--------------------------|
|--------------------------|--------------------------|
|--------------------------|--------------------------|
G
Am
~~~
|------5---------------12---|------------12----------------------------|
|----5-----------15b17------|--12--15b17----14b16r14p12--14b16r14p12---|
|-7b9---7b9r7p5/----------14b16-------------------------------------14-|
|---------------------------|------------------------------------------|
|---------------------------|------------------------------------------|
|---------------------------|------------------------------------------|
G
~~~
Am
|-------------17b19-|-[17]b19r17p15-17-17------12h14-|
|-------------------|---------------------17\--------|
|-12-14b16----------|--------------------------------|
|-------------------|--------------------------------|
|-------------------|--------------------------------|
|-------------------|--------------------------------|
G
Am
|-15p14p12-14p12\10-12p10-8-7-5-3-5-|-5-------5h7p5-------------5--/11/12---|
|---------------------------------5-|---5-7/8-------8-8\7p5---5-------------|
|-----------------------------------|----------------------7b9--------------|
|-----------------------------------|---------------------------------------|
|-----------------------------------|---------------------------------------|
|-----------------------------------|---------------------------------------|
G

Am

~~~

G

http://www.guitartabs.cc/tablocate.php?filename=/s/santana/samba_pa_ti.tab (5 of 8) [3/14/2001 1:49:42 AM]

samba_pa_ti.tab

|-12\10-10\8-8\7-7\5-5\3-3\2-2p0--------------|---3-5-7-/10\6/7-5-7-|
|-------------------------|-----3p1-1p0-0-----|---------------------|
|-------------------------|---------------2---|-0-------------------|
|-------------------------|-------------------|---------------------|
|-------------------------|-------------------|---------------------|
|-------------------------|-------------------|---------------------|
Am ~~
G
|-----------------|-------------------------------------------------------|
|-------5\3-3h5p3-|-5p3-0h3h5p3p0h3h5p3p0h3h5p3p0h3h5p3p0-3h5p3p0-3h5p3p0-|
|-7b9r7-----------|-------------------------------------------------------|
|-----------------|-------------------------------------------------------|
|-----------------|-------------------------------------------------------|
|-----------------|-------------------------------------------------------|
Am
G
|---------------------------------/12-|-22--22-21--21-20--20--19--19\-----|
|-3h5p3p0-3h5p3p0-3h5p3p0-3h5p3p0-----|-----------------------------------|
|-------------------------------------|-----------------------------------|
|-------------------------------------|-----------------------------------|
|-------------------------------------|-----------------------------------|
|-------------------------------------|-----------------------------------|
Am
|-17-17-15-14-12-----------------|
|---------------15b17r15p12------|
|--------------------------14b16-|
|--------------------------------|
|--------------------------------|
|--------------------------------|
G
|---12------------12-------------------------12----------------15b17-|
|-12--15p12-----12--15p12-----12-15p12-----12--15p12-----------------|
|----------14b16---------14b16--------14b16---------14b16r14p12------|
|--------------------------------------------------------------------|
|--------------------------------------------------------------------|
|--------------------------------------------------------------------|
Am
G
Am
~~~~
|-(15b17)r15p12----------------15-|-14-12----------12-|---------------------|
|--------------12-15--------------|------15p12-15\3---|------------------10-|
|-------------------14b16r14-12---|-------------------|-14b16r14-12--12\1---|
|---------------------------------|-------------------|------------14-------|
|---------------------------------|-------------------|---------------------|
|---------------------------------|-------------------|---------------------|
G

Am

G

Am

~~~~
~~~
|-7h8----7------7------|-5---0---------0-|-12-10----|-12--12h14-12h14p12----|
|--h8-10---8-10---8-10-|---5---5-5b7r5---|----------|-----------------------|
|----------------------|-----------------|----------|-----------------------|

http://www.guitartabs.cc/tablocate.php?filename=/s/santana/samba_pa_ti.tab (6 of 8) [3/14/2001 1:49:42 AM]

samba_pa_ti.tab

|----------------------|-----------------|----------|-----------------------|
|----------------------|-----------------|----------|-----------------------|
|----------------------|-----------------|----------|-----------------------|
G

Am
G
~~~
~~~~~~~~~~~
~~~
|-----------------------|---------12h14-12h14p12-|-------------------|
|-15--12-15-15b16r15b17-|-(15b17)----------------|-15--12-15p12------|
|-----------------------|------------------------|-------------14b16-|
|-----------------------|------------------------|-------------------|
|-----------------------|------------------------|-------------------|
|-----------------------|------------------------|-------------------|
Am
|-------------------------------------------------------------|
|-------------------------------------------------------------|
|-(14b16)r14p12-14b16r14p12-14-[14]b16r14p12-14-[14]b16r14p12-|
|-------------------------------------------------------------|
|-------------------------------------------------------------|
|-------------------------------------------------------------|
G (Begin to fade)
|-------------------------------------------|
|------12-----12-----12-----12-----12-15b17-|
|-14b16--14b16--14b16--14b16--14b16---------|
|-------------------------------------------|
|-------------------------------------------|
|-------------------------------------------|
Am
|-12-------12----------------------12-12\---------------------|
|--------12--15p12---------------12---12\---------------------|
|---14b16---------14b16r14p12--12-----12\-X\-------/X-X\------|
|----------------------------14-------------\X\---/-----\-----|
|----------------------------------------------\X/------------|
|-------------------------------------------------------------|
G
Am
G
|-3p2-0-------------|--------------|---3-5---5-3---2/-|
|-------3-0---------|--------------|-------5-----3----|
|-----------0-------|--------------|------------------|
|-------------4-0-2-|--------------|------------------|
|-------------------|-0-2--2p0-----|------------------|
|-------------------|----------3-0-|-3----------------|
Am
G
Am
|-12-----------------------12\10-10\7-7\5-5\3-3h5p3---------------------0--X/|
|----------------------------|-----------------|---5-3b5r3p0---------0-0-0-X/|
|--14b16r14p12-14b16r14p12---|-----------------|------------2b4r2p0-0-2------|
|-------------------------14-|-----------------|-------------------2---------|
|----------------------------|-----------------|-----------------------------|
|----------------------------|-----------------|-----------------------------|

http://www.guitartabs.cc/tablocate.php?filename=/s/santana/samba_pa_ti.tab (7 of 8) [3/14/2001 1:49:42 AM]

samba_pa_ti.tab

G
Am
|-12------------------------12--------12---X\-12-15b17-17b19-19b22\-22b23-|
|---15-12-----------------12--15p12-X---15-X\------|----------------------|
|--------14b16r14p12-14b16-------------------------|----------------------|
|--------------------------------------------------|----------------------|
|--------------------------------------------------|----------------------|
|--------------------------------------------------|----------------------|
G
|-7p5-3p2----------------|
|---------5-3/5b7r5p3--3-|
|------------------------|
|------------------------|
|------------------------|
|------------------------|

Fade to black.........Whew!!!!!!!!!

http://www.guitartabs.cc/tablocate.php?filename=/s/santana/samba_pa_ti.tab (8 of 8) [3/14/2001 1:49:42 AM]

smooth.crd

From Guitar Tab Universe - www.guitartabs.cc

[save this file]

SMOOTH - Carlos Santana & Rob Thomas
Album: Supernatural
From: Andreas Anger

INTRO:
VERSES:
CHORUS:

| Am |
||: Am
| Am |
| Am |

E7 | Am | E7 | Am | E7 | Am | E7 |
F | E7 | Am F | E7 | Dm | Bm7b5 E7 | Am | E7 :||
E7 | Am | E7 | Am | E7 | Dm F/C | Bm7b5 G | F#m11 | E7#9 |
E7 | Am | E7 | Am | E7 | Dm E7 |

Am
E7
Dm
Bm7b5
F
F/C
G
F#m11
E7#9
E||---0------0----------------------------------------------------|
B||---1------3------6------3------1------1------3------0------8---|
G||---2------1------7------2------2------2------4------2------7---|
D||---2------2------7------3------3------3------5------2------6---|
A||---0------2------5------2------3------3------5------x------7---|
E||----------0--------------------1-------------3------2----------|

http://www.guitartabs.cc/tablocate.php?filename=/s/santana/smooth.crd [3/14/2001 1:49:43 AM]

smooth.tab

From Guitar Tab Universe - www.guitartabs.cc

[save this file]

SMOOTH - Carlos Santana & Rob Thomas
Album: Supernatural
From: Andreas Anger

INTRO:
E|----------------------------------------------------------------------|
B|-----8---8/10~~-9-10-12-12b13r12-10-12-13-10-10~~-------------8-------|
G|-7h9---9------------------------------------------5b7r5b7r5b7---7-5~~-|
D|----------------------------------------------------------------------|
A|----------------------------------------------------------------------|
E|----------------------------------------------------------------------|
E|-------------------------|
B|-------------------------|
G|-------------------------|
D|-10p9\7-6-6-6h7-9b10-7~~-|
A|-------------------------|
E|-------------------------|
VERSE1:
Man it`s a hot one
Like seven inches from the midday sun
I hear your whisper and the words melt everyone
But you stay so cool
E|-------------------------------------------------------|
B|--------------------12h13-12-15-13---------------------|
G|-----------------------------------16-14-13-14-13-14~~-|
D|-sorry, something--------------------------------------|
A|-is missing here---------------------------------------|
E|-------------------------------------------------------|
My Munequita, my Spanish Harlem Mona Lisa
E|------------------------|
B|-15b17-15b17-13h15-17~~-|
G|------------------------|
D|------------------------|
A|------------------------|
E|------------------------|

http://www.guitartabs.cc/tablocate.php?filename=/s/santana/smooth.tab (1 of 6) [3/14/2001 1:49:44 AM]

smooth.tab

You`re my reason for reason
The step in my groove
E|---------------------------------------------|
B|-15/17-17-15----15h17-15-13-15-15b17r15b17~~-|
G|-------------17------------------------------|
D|---------------------------------------------|
A|---------------------------------------------|
E|---------------------------------------------|
BRIDGE:
And if you said this life ain`t good enough
I would give my world to lift you up
I could change my life to better suit your mood
E|---------------------------------------|
B|---------------------------------------|
G|-------------------14-16-16-17p16-14~~-|
D|-12p10h12p10-12-14---------------------|
A|---------------------------------------|
E|---------------------------------------|
`Cause you`re so smooth
E|-------12-------12-15p12------------------------------------------|
B|-15b17----15b17----------15h17-15b16-15-13-15p13-15p13-15p13------|
G|-------------------------------------------------------------14~~-|
D|------------------------------------------------------------------|
A|------------------------------------------------------------------|
E|------------------------------------------------------------------|
CHORUS:
And it`s just like the ocean under the moon
Well that`s the same as the emotion that I get from you
You got the kind of lovin` that could be so smooth
Give me your heart make it real
Or else forget about it
E|---------------------------------------------------------------------|
B|--------------------------------------------15b17~~-12\13-13---------|
G|-13h14~~-13-14-16-16b17r16-14-16-17-14-14~~------------------14-14~~-|
D|---------------------------------------------------------------------|
A|---------------------------------------------------------------------|
E|---------------------------------------------------------------------|
VERSE2:

http://www.guitartabs.cc/tablocate.php?filename=/s/santana/smooth.tab (2 of 6) [3/14/2001 1:49:44 AM]

smooth.tab

Well I`ll tell you one thing
If you would leave it be a crying shame
E|-----------|
B|-----------|
G|-7/9-7~~h9-|
D|-----------|
A|-----------|
E|-----------|
In every breath and every word
I hear your name calling me out
E|----------------------------------------------------|
B|-------------12-13-12---15p13-13p12h13--------------|
G|-------12-14---------------------------14~~-13/14~~-|
D|-12/14----------------------------------------------|
A|----------------------------------------------------|
E|----------------------------------------------------|
Out from the barrio
You hear my rhythm on the radio
You feel the turning of the world
So soft and slow
Turning you round and round
E|---------------------------------------------|
B|-15/17-17-15----15h17-15-13-15-15b17r15b17~~-|
G|-------------17------------------------------|
D|---------------------------------------------|
A|---------------------------------------------|
E|---------------------------------------------|
BRIDGE:
And if you said this life ain`t good enough
I would give my world to lift you up
I could change my life to better suit your mood
E|-------------------------------------|
B|---------------12-13--15-13-15-13h15-|
G|-----------14------------------------|
D|-12-14-15----------------------------|
A|-------------------------------------|
E|-------------------------------------|
`Cause you`re so smooth

http://www.guitartabs.cc/tablocate.php?filename=/s/santana/smooth.tab (3 of 6) [3/14/2001 1:49:44 AM]

smooth.tab

E|-------12-------12-15p12------------------------------------------|
B|-15b17----15b17----------15h17-15b16-15-13-15p13-15p13-15p13------|
G|-------------------------------------------------------------14~~-|
D|------------------------------------------------------------------|
A|------------------------------------------------------------------|
E|------------------------------------------------------------------|
CHORUS:
And it`s just like the ocean under the moon
Well that`s the same as the emotion that I get from you
You got the kind of lovin` that could be so smooth
Give me your heart make it real
Or else forget about it
SOLO:
E|----------------------------------------------------------------------|
B|----------------------------------------------------------------------|
G|-13h14~~-13~~-13-16b17r16-14~~-16-14-13~~----13-16-17-16-14~~-16-13~~-|
D|------------------------------------------14--------------------------|
A|----------------------------------------------------------------------|
E|----------------------------------------------------------------------|
E|--------------------------------------------------|
B|--------------------------------------------------|
G|-13-16/17-16-14h16-14-14~~------------------------|
D|---------------------------12h14-12h14-12-14-14~~-|
A|--------------------------------------------------|
E|--------------------------------------------------|
E|-15b17-15b17-17r15---------------20r19-17-17---------------------------|
B|-------------------17-15-17-17~~-------------15h17-15-17-13-15-17-15~~-|
G|-----------------------------------------------------------------------|
D|-----------------------------------------------------------------------|
A|-----------------------------------------------------------------------|
E|-----------------------------------------------------------------------|
E|----17-19-20-19-20-19-20-19-20-19-20-19-20-19-20-19-20-20b21~~-21r20-17-|
B|-17---------------------------------------------------------------------|
G|------------------------------------------------------------------------|
D|------------------------------------------------------------------------|
A|------------------------------------------------------------------------|
E|------------------------------------------------------------------------|
E|-------------/17-17-/17-17-17-17-15----------------|
B|-20b22r20b22------------------------17-15h17-15b16-|

http://www.guitartabs.cc/tablocate.php?filename=/s/santana/smooth.tab (4 of 6) [3/14/2001 1:49:44 AM]

smooth.tab

G|---------------------------------------------------|
D|---------------------------------------------------|
A|---------------------------------------------------|
E|---------------------------------------------------|
tremolo picking
E|-12h15p12------------------------------------------------------------|
B|----------15-16r15-13----13h15---------------------------------------|
G|----------------------14---------/9-/10-/11-/12-/13-/14-/15-/16-14~~-|
D|---------------------------------------------------------------------|
A|---------------------------------------------------------------------|
E|---------------------------------------------------------------------|
CHORUS:
And it`s just like the ocean under the moon
Well that`s the same as the emotion that I get from you
You got the kind of lovin` that could be so smooth
Give me your heart make it real
Or else forget about it
(w/improvisation)
E||----------------------------------------------------||
B||--------------------------------------------15b17~~-||
G|:-13h14~~-13-14-16-16b17r16-14-16-17-14-14~~---------:|
D||----------------------------------------------------||
A||----------------------------------------------------||
E||----------------------------------------------------||

http://www.guitartabs.cc/tablocate.php?filename=/s/santana/smooth.tab (5 of 6) [3/14/2001 1:49:44 AM]

smooth.tab

http://www.guitartabs.cc/tablocate.php?filename=/s/santana/smooth.tab (6 of 6) [3/14/2001 1:49:44 AM]

smooth2.tab

From Guitar Tab Universe - www.guitartabs.cc

[save this file]

Hi guys my name is joey montuori and I am 15 and play guitar I have figured
out the solo in the begining and I am in the process of trying to learn
the chords I will post it soon! So have fun with this. Email me at
joey820@yahoo.com

Santana Smooth
E-------------------------------------------------------------------------B-------------------------12(bend up)-12-13-----------/8-----5p4----------G-------12----14--13--14------14------------14--14--7/---7-5------7-6-7~9-7
D-12-14----14-------------------------------------------------------------A-------------------------------------------------------------------------E-------------------------------------------------------------------------Well there it is have fun any questions or comments email me at
joey820@yahoo.com/

/=slide up
/
p=pulloff
~=slide to *

http://www.guitartabs.cc/tablocate.php?filename=/s/santana/smooth2.tab [3/14/2001 1:49:44 AM]

maria_maria_2.tab

From Guitar Tab Universe - www.guitartabs.cc

[save this file]

this is the revised version of the electric lead.

e-5-8-12-13-12-b--------------13-13
g---------------14

e-12-17-12
b--------13-13
g---------14

e-12-13-12-----12-12-12-12-8-5
b--------13-13
g---------14

this is what i got from the previous submit. i also want to say
hi to mr dave, rosendo, and jackie

http://www.guitartabs.cc/tablocate.php?filename=/s/santana/maria_maria_2.tab [3/14/2001 1:49:45 AM]

well_all_right.tab

From Guitar Tab Universe - www.guitartabs.cc

[save this file]

HERE IS WELL ALL RIGHT BY SANTANA. ENJOY!
CAWLYN

SYMBOLS
h = hammer on
p = pull off
/ = slide up
e |--------------------------------------------------------------------------------|
B |--------5h6---5---6---6h8--8----6----5---------------------------------|
G |------------------------------------------------7--7--7--7p5----5--7-----|
D |------------------------------------------------------------------7------------|
A |--------------------------------------------------------------------------------|
E |--------------------------------------------------------------------------------|
REPEAT 4 TIMES
e
|-------------------------------------------------------------------------------------------|
B
|-------------------------------------------------------------------------------------------|
G
|-------------------------------------------------------------------------------------------|
D
|-------------------------------4-----------------------------------------4--5--4--2----|
A |--5--3--5--0--3--5--5/7--5-----0--3--5--3--5--0--3--5--5/7--5--7--5--3----|
E
|-------------------------------------------------------------------------------------------|
then strum G5 and let ring for 4 then strum A5 and let ring for 4
e
B
G
D
A
E

|-------------------|
|------------------------|
|---7----5----7--------|
|------------------------|
|---5----3----5--------|
|------------------------|

REPEAT IT ONCE FROM G5 APART FROM THE FINGER PICKING PART ARE POWER CHORDS OF D THEN
C THEN D ON THE A,D+G string.
THEN DO THE POWER CHORDS AGAIN AND THEN BACK TO THE START
DURING THE SOLO DO THE POWER CHORDS D, Bb, C and the back to D
you should be able to pick up the rythm as it is quite easy

http://www.guitartabs.cc/tablocate.php?filename=/s/santana/well_all_right.tab [3/14/2001 1:49:46 AM]


Documenti correlati


Documento PDF forever yours the secret password to his heart book
Documento PDF love commands pdf book scott foster
Documento PDF katy wilson psoriasis free for life ebook
Documento PDF santana songbook
Documento PDF homebrewing for dummies
Documento PDF pua training get girls now book


Parole chiave correlate